0
SECTION
2
HEADER
9
$INSUNITS
70
4
9
$ACADVER
1
AC1014
9
$HANDSEED
5
FFFF
0
ENDSEC
0
SECTION
2
TABLES
0
TABLE
2
VPORT
5
8
100
AcDbSymbolTable
0
ENDTAB
0
TABLE
2
LTYPE
5
5
100
AcDbSymbolTable
0
LTYPE
5
14
100
AcDbSymbolTableRecord
100
AcDbLinetypeTableRecord
2
BYBLOCK
70
0
0
LTYPE
5
15
100
AcDbSymbolTableRecord
100
AcDbLinetypeTableRecord
2
BYLAYER
70
0
0
ENDTAB
0
TABLE
2
LAYER
5
2
100
AcDbSymbolTable
70
2
0
LAYER
5
50
100
AcDbSymbolTableRecord
100
AcDbLayerTableRecord
2
0
70
0
6
CONTINUOUS
0
ENDTAB
0
TABLE
2
STYLE
5
3
100
AcDbSymbolTable
70
1
0
STYLE
5
11
100
AcDbSymbolTableRecord
100
AcDbTextStyleTableRecord
2
STANDARD
70
0
0
ENDTAB
0
TABLE
2
VIEW
5
6
100
AcDbSymbolTable
70
0
0
ENDTAB
0
TABLE
2
UCS
5
7
100
AcDbSymbolTable
70
0
0
ENDTAB
0
TABLE
2
APPID
5
9
100
AcDbSymbolTable
70
2
0
APPID
5
12
100
AcDbSymbolTableRecord
100
AcDbRegAppTableRecord
2
ACAD
70
0
0
ENDTAB
0
TABLE
2
DIMSTYLE
5
A
100
AcDbSymbolTable
70
1
0
ENDTAB
0
TABLE
2
BLOCK_RECORD
5
1
100
AcDbSymbolTable
70
1
0
BLOCK_RECORD
5
1F
100
AcDbSymbolTableRecord
100
AcDbBlockTableRecord
2
*MODEL_SPACE
0
BLOCK_RECORD
5
1B
100
AcDbSymbolTableRecord
100
AcDbBlockTableRecord
2
*PAPER_SPACE
0
ENDTAB
0
ENDSEC
0
SECTION
2
BLOCKS
0
BLOCK
5
20
100
AcDbEntity
100
AcDbBlockBegin
2
*MODEL_SPACE
0
ENDBLK
5
21
100
AcDbEntity
100
AcDbBlockEnd
0
BLOCK
5
1C
100
AcDbEntity
100
AcDbBlockBegin
2
*PAPER_SPACE
0
ENDBLK
5
1D
100
AcDbEntity
100
AcDbBlockEnd
0
ENDSEC
0
SECTION
2
ENTITIES
0
ARC
5
100
100
AcDbEntity
8
0
100
AcDbCircle
10
-312.66654762208441
20
2.3334523779156009
30
0
40
3.3000000000000207
210
0
220
0
230
1
100
AcDbArc
50
134.99999999999943
51
314.99999999999943
0
LINE
5
101
100
AcDbEntity
8
0
100
AcDbLine
10
-315
20
4.6669047558312382
30
0
11
-315
21
18.000000000000004
31
0
0
LINE
5
102
100
AcDbEntity
8
0
100
AcDbLine
10
-315
20
18.000000000000004
30
0
11
-429.99999999999994
21
17.999999999999972
31
0
0
LINE
5
103
100
AcDbEntity
8
0
100
AcDbLine
10
-429.99999999999994
20
17.999999999999972
30
0
11
-429.99999999999989
21
-60
31
0
0
LINE
5
104
100
AcDbEntity
8
0
100
AcDbLine
10
-429.99999999999989
20
-60
30
0
11
-416.66690475583107
21
-60
31
0
0
ARC
5
105
100
AcDbEntity
8
0
100
AcDbCircle
10
-414.33345237791548
20
-62.333452377915599
30
0
40
3.2999999999999923
210
-0
220
0
230
1
100
AcDbArc
50
-45.000000000000099
51
134.99999999999991
0
LINE
5
106
100
AcDbEntity
8
0
100
AcDbLine
10
-411.99999999999989
20
-64.666904755831197
30
0
11
-411.99999999999989
21
-165.33309524416879
31
0
0
ARC
5
107
100
AcDbEntity
8
0
100
AcDbCircle
10
-414.33345237791548
20
-167.66654762208441
30
0
40
3.2999999999999985
210
0
220
0
230
1
100
AcDbArc
50
-135
51
45.000000000000355
0
LINE
5
108
100
AcDbEntity
8
0
100
AcDbLine
10
-416.66690475583107
20
-170
30
0
11
-429.99999999999989
21
-170
31
0
0
LINE
5
109
100
AcDbEntity
8
0
100
AcDbLine
10
-429.99999999999989
20
-170
30
0
11
-429.99999999999989
21
-290
31
0
0
LINE
5
110
100
AcDbEntity
8
0
100
AcDbLine
10
-429.99999999999989
20
-290
30
0
11
-416.66690475583118
21
-290
31
0
0
ARC
5
111
100
AcDbEntity
8
0
100
AcDbCircle
10
-414.33345237791565
20
-292.33345237791576
30
0
40
3.300000000000074
210
0
220
0
230
1
100
AcDbArc
50
-44.999999999997208
51
134.99999999999721
0
LINE
5
112
100
AcDbEntity
8
0
100
AcDbLine
10
-411.99999999999989
20
-294.6669047558313
30
0
11
-411.99999999999989
21
-395.33309524416865
31
0
0
ARC
5
113
100
AcDbEntity
8
0
100
AcDbCircle
10
-414.33345237791559
20
-397.66654762208424
30
0
40
3.3000000000001495
210
0
220
0
230
1
100
AcDbArc
50
-134.99999999999861
51
44.9999999999986
0
LINE
5
114
100
AcDbEntity
8
0
100
AcDbLine
10
-416.66690475583124
20
-400
30
0
11
-429.99999999999989
21
-400
31
0
0
LINE
5
115
100
AcDbEntity
8
0
100
AcDbLine
10
-429.99999999999989
20
-400
30
0
11
-429.99999999999994
21
-463.17388565275229
31
0
0
LINE
5
116
100
AcDbEntity
8
0
100
AcDbLine
10
-429.99999999999994
20
-463.17388565275229
30
0
11
-416.66690475583141
21
-463.17388565275235
31
0
0
ARC
5
117
100
AcDbEntity
8
0
100
AcDbCircle
10
-414.33345237791565
20
-465.50733803066805
30
0
40
3.3000000000001495
210
0
220
-0
230
1
100
AcDbArc
50
44.999999999999304
51
135.00000000000071
0
ARC
5
118
100
AcDbEntity
8
0
100
AcDbCircle
10
-414.33345237791565
20
-465.50733803066805
30
0
40
3.2999999999999985
210
0
220
0
230
1
100
AcDbArc
50
-44.999999999999289
51
44.999999999999304
0
LINE
5
119
100
AcDbEntity
8
0
100
AcDbLine
10
-412
20
-467.84079040858364
30
0
11
-411.99999999999994
21
-583
31
0
0
LINE
5
120
100
AcDbEntity
8
0
100
AcDbLine
10
-411.99999999999994
20
-583
30
0
11
-315.00000000000114
21
-583
31
0
0
LINE
5
121
100
AcDbEntity
8
0
100
AcDbLine
10
-315.00000000000114
20
-583
30
0
11
-315.00000000000114
21
-569.66690475583061
31
0
0
ARC
5
122
100
AcDbEntity
8
0
100
AcDbCircle
10
-312.66654762208555
20
-567.33345237791514
30
0
40
3.299999999999923
210
0
220
-0
230
1
100
AcDbArc
50
44.999999999989534
51
224.99999999999858
0
LINE
5
123
100
AcDbEntity
8
0
100
AcDbLine
10
-310.33309524416956
20
-565
30
0
11
-119.66690475583238
21
-565
31
0
0
ARC
5
124
100
AcDbEntity
8
0
100
AcDbCircle
10
-117.33345237791681
20
-567.33345237791559
30
0
40
3.2999999999999479
210
0
220
0
230
1
100
AcDbArc
50
-44.999999999998415
51
134.99999999999966
0
LINE
5
125
100
AcDbEntity
8
0
100
AcDbLine
10
-115.00000000000121
20
-569.66690475583107
30
0
11
-115.00000000000125
21
-583
31
0
0
LINE
5
126
100
AcDbEntity
8
0
100
AcDbLine
10
-115.00000000000125
20
-583
30
0
11
-17.999999999999972
21
-583
31
0
0
LINE
5
127
100
AcDbEntity
8
0
100
AcDbLine
10
-17.999999999999972
20
-583
30
0
11
-18
21
-467.84079040858359
31
0
0
ARC
5
128
100
AcDbEntity
8
0
100
AcDbCircle
10
-15.666547622084179
20
-465.507338030668
30
0
40
3.3000000000001446
210
0
220
0
230
1
100
AcDbArc
50
135.00000000000205
51
224.99999999999719
0
ARC
5
129
100
AcDbEntity
8
0
100
AcDbCircle
10
-15.666547622084179
20
-465.507338030668
30
0
40
3.2999999999999341
210
0
220
-0
230
1
100
AcDbArc
50
44.999999999999368
51
135.00000000000205
0
LINE
5
130
100
AcDbEntity
8
0
100
AcDbLine
10
-13.333095244168593
20
-463.17388565275246
30
0
11
0
21
-463.17388565275235
31
0
0
LINE
5
131
100
AcDbEntity
8
0
100
AcDbLine
10
0
20
-463.17388565275235
30
0
11
7.1054273576010019e-14
21
-400
31
0
0
LINE
5
132
100
AcDbEntity
8
0
100
AcDbLine
10
7.1054273576010019e-14
20
-400
30
0
11
-13.333095244168724
21
-400
31
0
0
ARC
5
133
100
AcDbEntity
8
0
100
AcDbCircle
10
-15.666547622084309
20
-397.66654762208424
30
0
40
3.3000000000000345
210
0
220
0
230
1
100
AcDbArc
50
134.9999999999992
51
314.99999999999778
0
LINE
5
134
100
AcDbEntity
8
0
100
AcDbLine
10
-17.999999999999893
20
-395.33309524416859
30
0
11
-17.999999999999901
21
-294.66690475583141
31
0
0
ARC
5
135
100
AcDbEntity
8
0
100
AcDbCircle
10
-15.666547622084295
20
-292.33345237791576
30
0
40
3.3000000000000758
210
0
220
-0
230
1
100
AcDbArc
50
45.000000000002771
51
225.00000000000051
0
LINE
5
136
100
AcDbEntity
8
0
100
AcDbLine
10
-13.333095244168758
20
-290
30
0
11
7.1054273576010019e-14
21
-290
31
0
0
LINE
5
137
100
AcDbEntity
8
0
100
AcDbLine
10
7.1054273576010019e-14
20
-290
30
0
11
7.1054273576010019e-14
21
-170
31
0
0
LINE
5
138
100
AcDbEntity
8
0
100
AcDbLine
10
7.1054273576010019e-14
20
-170
30
0
11
-13.333095244168831
21
-170
31
0
0
ARC
5
139
100
AcDbEntity
8
0
100
AcDbCircle
10
-15.666547622084437
20
-167.66654762208441
30
0
40
3.2999999999999985
210
0
220
0
230
1
100
AcDbArc
50
134.99999999999633
51
315.00000000000017
0
LINE
5
140
100
AcDbEntity
8
0
100
AcDbLine
10
-17.999999999999901
20
-165.33309524416865
30
0
11
-17.999999999999901
21
-64.666904755831354
31
0
0
ARC
5
141
100
AcDbEntity
8
0
100
AcDbCircle
10
-15.666547622084437
20
-62.333452377915606
30
0
40
3.2999999999999985
210
0
220
-0
230
1
100
AcDbArc
50
45
51
225.00000000000347
0
LINE
5
142
100
AcDbEntity
8
0
100
AcDbLine
10
-13.333095244168831
20
-60
30
0
11
7.1054273576010019e-14
21
-60
31
0
0
LINE
5
143
100
AcDbEntity
8
0
100
AcDbLine
10
7.1054273576010019e-14
20
-60
30
0
11
0
21
17.999999999999972
31
0
0
LINE
5
144
100
AcDbEntity
8
0
100
AcDbLine
10
0
20
17.999999999999972
30
0
11
-114.99999999999994
21
18.000000000000004
31
0
0
LINE
5
145
100
AcDbEntity
8
0
100
AcDbLine
10
-114.99999999999994
20
18.000000000000004
30
0
11
-114.99999999999994
21
4.6669047558307319
31
0
0
ARC
5
146
100
AcDbEntity
8
0
100
AcDbCircle
10
-117.33345237791559
20
2.3334523779151759
30
0
40
3.30000000000001
210
0
220
0
230
1
100
AcDbArc
50
-135.00000000001066
51
44.999999999998863
0
LINE
5
147
100
AcDbEntity
8
0
100
AcDbLine
10
-119.66690475583164
20
-1.9428902930940239e-15
30
0
11
-310.33309524416882
21
-3.6368013798875297e-14
31
0
0
ENDSEC
0
SECTION
2
OBJECTS
0
DICTIONARY
5
C
100
AcDbDictionary
3
ACAD_GROUP
350
D
3
ACAD_MLINESTYLE
350
17
0
DICTIONARY
5
D
100
AcDbDictionary
0
DICTIONARY
5
1A
330
C
100
AcDbDictionary
0
DICTIONARY
5
17
100
AcDbDictionary
0
ENDSEC
0
EOF
